  0
SECTION
  2
HEADER
  9
$ACADVER
  1
AC1009
  9
$INSBASE
 10
346.308601
 20
100.6549389999999
 30
0.0
  9
$EXTMIN
 10
346.308601
 20
100.6549389999999
 30
0.0
  9
$EXTMAX
 10
388.5810726781958
 20
160.4729069999999
 30
0.0
  9
$LIMMIN
 10
0.0
 20
0.0
  9
$LIMMAX
 10
420.0
 20
297.0
  9
$ORTHOMODE
 70
     1
  9
$REGENMODE
 70
     0
  9
$FILLMODE
 70
     1
  9
$QTEXTMODE
 70
     0
  9
$MIRRTEXT
 70
     0
  9
$DRAGMODE
 70
     2
  9
$LTSCALE
 40
1.0
  9
$OSMODE
 70
     0
  9
$ATTMODE
 70
     2
  9
$TEXTSIZE
 40
3.5
  9
$TRACEWID
 40
0.1
  9
$TEXTSTYLE
  7
STANDARD
  9
$CLAYER
  8
ITEM_50
  9
$CELTYPE
  6
BYLAYER
  9
$CECOLOR
 62
   256
  9
$DIMSCALE
 40
1.0
  9
$DIMASZ
 40
2.0
  9
$DIMEXO
 40
1.0
  9
$DIMDLI
 40
8.0
  9
$DIMRND
 40
0.0
  9
$DIMDLE
 40
0.0
  9
$DIMEXE
 40
2.0
  9
$DIMTP
 40
0.1
  9
$DIMTM
 40
0.1
  9
$DIMTXT
 40
3.5
  9
$DIMCEN
 40
2.0
  9
$DIMTSZ
 40
0.0
  9
$DIMTOL
 70
     0
  9
$DIMLIM
 70
     0
  9
$DIMTIH
 70
     0
  9
$DIMTOH
 70
     0
  9
$DIMSE1
 70
     0
  9
$DIMSE2
 70
     0
  9
$DIMTAD
 70
     1
  9
$DIMZIN
 70
     8
  9
$DIMBLK
  1

  9
$DIMASO
 70
     1
  9
$DIMSHO
 70
     1
  9
$DIMPOST
  1

  9
$DIMAPOST
  1

  9
$DIMALT
 70
     0
  9
$DIMALTD
 70
     2
  9
$DIMALTF
 40
25.39999999999999
  9
$DIMLFAC
 40
1.0
  9
$DIMTOFL
 70
     1
  9
$DIMTVP
 40
0.0
  9
$DIMTIX
 70
     0
  9
$DIMSOXD
 70
     0
  9
$DIMSAH
 70
     0
  9
$DIMBLK1
  1

  9
$DIMBLK2
  1

  9
$DIMSTYLE
  2
*UNNAMED
  9
$DIMCLRD
 70
     0
  9
$DIMCLRE
 70
     0
  9
$DIMCLRT
 70
     0
  9
$DIMTFAC
 40
1.0
  9
$DIMGAP
 40
0.09
  9
$LUNITS
 70
     2
  9
$LUPREC
 70
     3
  9
$SKETCHINC
 40
0.1
  9
$FILLETRAD
 40
20.0
  9
$AUNITS
 70
     0
  9
$AUPREC
 70
     1
  9
$MENU
  1

  9
$ELEVATION
 40
0.0
  9
$PELEVATION
 40
0.0
  9
$THICKNESS
 40
0.0
  9
$LIMCHECK
 70
     0
  9
$BLIPMODE
 70
     0
  9
$CHAMFERA
 40
5.0
  9
$CHAMFERB
 40
5.0
  9
$SKPOLY
 70
     1
  9
$TDCREATE
 40
2448897.374414467
  9
$TDUPDATE
 40
2449393.455866897
  9
$TDINDWG
 40
0.0022135417
  9
$TDUSRTIMER
 40
0.0022135417
  9
$USRTIMER
 70
     1
  9
$ANGBASE
 50
0.0
  9
$ANGDIR
 70
     0
  9
$PDMODE
 70
     3
  9
$PDSIZE
 40
0.0
  9
$PLINEWID
 40
0.0
  9
$COORDS
 70
     2
  9
$SPLFRAME
 70
     0
  9
$SPLINETYPE
 70
     6
  9
$SPLINESEGS
 70
     8
  9
$ATTDIA
 70
     1
  9
$ATTREQ
 70
     1
  9
$HANDLING
 70
     1
  9
$HANDSEED
  5
B98
  9
$SURFTAB1
 70
     6
  9
$SURFTAB2
 70
     6
  9
$SURFTYPE
 70
     6
  9
$SURFU
 70
     6
  9
$SURFV
 70
     6
  9
$UCSNAME
  2

  9
$UCSORG
 10
0.0
 20
0.0
 30
0.0
  9
$UCSXDIR
 10
1.0
 20
0.0
 30
0.0
  9
$UCSYDIR
 10
0.0
 20
1.0
 30
0.0
  9
$PUCSNAME
  2

  9
$PUCSORG
 10
0.0
 20
0.0
 30
0.0
  9
$PUCSXDIR
 10
1.0
 20
0.0
 30
0.0
  9
$PUCSYDIR
 10
0.0
 20
1.0
 30
0.0
  9
$USERI1
 70
     0
  9
$USERI2
 70
     3
  9
$USERI3
 70
    15
  9
$USERI4
 70
     0
  9
$USERI5
 70
     0
  9
$USERR1
 40
1.0
  9
$USERR2
 40
1.0
  9
$USERR3
 40
0.0
  9
$USERR4
 40
1.0
  9
$USERR5
 40
0.0
  9
$WORLDVIEW
 70
     5
  9
$SHADEDGE
 70
     3
  9
$SHADEDIF
 70
    70
  9
$TILEMODE
 70
     1
  9
$MAXACTVP
 70
    16
  9
$PINSBASE
 10
0.0
 20
0.0
 30
0.0
  9
$PLIMCHECK
 70
     0
  9
$PEXTMIN
 10
1.000000000000000E+20
 20
1.000000000000000E+20
 30
1.000000000000000E+20
  9
$PEXTMAX
 10
-1.000000000000000E+20
 20
-1.000000000000000E+20
 30
-1.000000000000000E+20
  9
$PLIMMIN
 10
0.0
 20
0.0
  9
$PLIMMAX
 10
12.0
 20
9.0
  9
$UNITMODE
 70
     0
  9
$VISRETAIN
 70
     0
  9
$PLINEGEN
 70
     0
  9
$PSLTSCALE
 70
     0
  9
$TREEDEPTH
 70
  3020
  9
$DWGCODEPAGE
  3
undefined
  0
ENDSEC
  0
SECTION
  2
TABLES
  0
TABLE
  2
VPORT
 70
     6
  0
VPORT
  2
*ACTIVE
 70
     0
 10
0.0
 20
0.0
 11
1.0
 21
1.0
 12
387.6046198722891
 22
133.0268182007351
 13
0.0
 23
0.0
 14
1.0
 24
1.0
 15
10.0
 25
10.0
 16
0.0
 26
0.0
 36
1.0
 17
0.0
 27
0.0
 37
0.0
 40
64.74375840147027
 41
1.275675675675675
 42
50.0
 43
0.0
 44
0.0
 50
0.0
 51
0.0
 71
     0
 72
   100
 73
     1
 74
     0
 75
     0
 76
     0
 77
     0
 78
     0
  0
VPORT
  2
G-AF4R
 70
     0
 10
0.0
 20
0.0
 11
0.75
 21
1.0
 12
210.0
 22
185.4098669999999
 13
0.0
 23
0.0
 14
1.0
 24
1.0
 15
10.0
 25
10.0
 16
0.0
 26
0.0
 36
1.0
 17
0.0
 27
0.0
 37
0.0
 40
370.8197339999999
 41
1.132625999999999
 42
50.0
 43
0.0
 44
0.0
 50
0.0
 51
0.0
 71
     0
 72
   100
 73
     1
 74
     1
 75
     1
 76
     1
 77
     0
 78
     0
  0
VPORT
  2
G-AF4R
 70
     0
 10
0.75
 20
0.0
 11
1.0
 21
0.333333
 12
210.0
 22
182.3023699999999
 13
0.0
 23
0.0
 14
1.0
 24
1.0
 15
10.0
 25
10.0
 16
0.0
 26
0.0
 36
1.0
 17
0.0
 27
0.0
 37
0.0
 40
364.6047399999999
 41
1.151932
 42
50.0
 43
0.0
 44
0.0
 50
0.0
 51
0.0
 71
     0
 72
   100
 73
     1
 74
     1
 75
     1
 76
     1
 77
     0
 78
     0
  0
VPORT
  2
G-AF4R
 70
     0
 10
0.75
 20
0.333333
 11
1.0
 21
0.666667
 12
210.0
 22
182.3023699999999
 13
0.0
 23
0.0
 14
1.0
 24
1.0
 15
10.0
 25
10.0
 16
0.0
 26
0.0
 36
1.0
 17
0.0
 27
0.0
 37
0.0
 40
364.6047399999999
 41
1.151932
 42
50.0
 43
0.0
 44
0.0
 50
0.0
 51
0.0
 71
     0
 72
   100
 73
     1
 74
     1
 75
     1
 76
     1
 77
     0
 78
     0
  0
VPORT
  2
G-AF4R
 70
     0
 10
0.75
 20
0.666667
 11
1.0
 21
1.0
 12
210.0
 22
184.2626099999999
 13
0.0
 23
0.0
 14
1.0
 24
1.0
 15
10.0
 25
10.0
 16
0.0
 26
0.0
 36
1.0
 17
0.0
 27
0.0
 37
0.0
 40
368.5252209999999
 41
1.139678
 42
50.0
 43
0.0
 44
0.0
 50
0.0
 51
0.0
 71
     0
 72
   100
 73
     1
 74
     1
 75
     1
 76
     1
 77
     0
 78
     0
  0
ENDTAB
  0
TABLE
  2
LTYPE
 70
     3
  0
LTYPE
  2
CONTINUOUS
 70
    64
  3
Solid line
 72
    65
 73
     0
 40
0.0
  0
LTYPE
  2
GEN
 70
    64
  3
----------------------
 72
    65
 73
     2
 40
10000000000.0
 49
0.0
 49
10000000000.0
  0
LTYPE
  2
ITEM-STRICHPUNKT
 70
    64
  3
__ . __ . __
 72
    65
 73
     4
 40
3.6
 49
2.399999999999999
 49
-0.6
 49
0.0
 49
-0.6
  0
ENDTAB
  0
TABLE
  2
LAYER
 70
     4
  0
LAYER
  2
0
 70
     0
 62
     7
  6
GEN
  0
LAYER
  2
ITEM_50
 70
    64
 62
     7
  6
CONTINUOUS
  0
LAYER
  2
ITEM_HILFE
 70
    64
 62
     3
  6
CONTINUOUS
  0
LAYER
  2
ITEM_STPG
 70
    64
 62
     4
  6
ITEM-STRICHPUNKT
  0
ENDTAB
  0
TABLE
  2
STYLE
 70
     2
  0
STYLE
  2
STANDARD
 70
     0
 40
0.0
 41
1.0
 50
0.0
 71
     0
 42
3.5
  3
ISO8
  4

  0
STYLE
  2
GENPRESET
 70
     0
 40
0.0
 41
1.0
 50
0.0
 71
     0
 42
3.5
  3
ISO8
  4

  0
ENDTAB
  0
TABLE
  2
VIEW
 70
     5
  0
VIEW
  2
1
 70
     0
 40
146.0
 10
113.5
 20
206.0
 41
207.0
 11
0.0
 21
0.0
 31
1.0
 12
0.0
 22
0.0
 32
0.0
 42
50.0
 43
0.0
 44
0.0
 50
0.0
 71
     0
  0
VIEW
  2
2
 70
     0
 40
128.0
 10
309.5
 20
218.0
 41
193.0
 11
0.0
 21
0.0
 31
1.0
 12
0.0
 22
0.0
 32
0.0
 42
50.0
 43
0.0
 44
0.0
 50
0.0
 71
     0
  0
VIEW
  2
3
 70
     0
 40
154.0
 10
127.0
 20
89.0
 41
220.0
 11
0.0
 21
0.0
 31
1.0
 12
0.0
 22
0.0
 32
0.0
 42
50.0
 43
0.0
 44
0.0
 50
0.0
 71
     0
  0
VIEW
  2
4
 70
     0
 40
67.0
 10
176.5
 20
43.5
 41
107.0
 11
0.0
 21
0.0
 31
1.0
 12
0.0
 22
0.0
 32
0.0
 42
50.0
 43
0.0
 44
0.0
 50
0.0
 71
     0
  0
VIEW
  2
5
 70
     0
 40
123.0
 10
207.0
 20
149.5
 41
184.0
 11
0.0
 21
0.0
 31
1.0
 12
0.0
 22
0.0
 32
0.0
 42
50.0
 43
0.0
 44
0.0
 50
0.0
 71
     0
  0
ENDTAB
  0
TABLE
  2
UCS
 70
     0
  0
ENDTAB
  0
TABLE
  2
APPID
 70
     1
  0
APPID
  2
ACAD
 70
    64
  0
ENDTAB
  0
TABLE
  2
DIMSTYLE
 70
     0
  0
ENDTAB
  0
ENDSEC
  0
SECTION
  2
BLOCKS
  0
ENDSEC
  0
SECTION
  2
ENTITIES
  0
LINE
  8
ITEM_50
  5
7E5
 10
360.250039
 20
157.161865
 30
0.0
 11
360.232432
 21
158.170591
 31
0.0
  0
ARC
  8
ITEM_50
  5
7E6
 10
359.7325079999999
 20
158.161865
 30
0.0
 40
0.5
 50
1.0
 51
90.0
  0
ARC
  8
ITEM_50
  5
7ED
 10
375.236462
 20
112.0277099999999
 30
0.0
 40
0.3
 50
41.775348
 51
180.0
  0
ARC
  8
ITEM_50
  5
7EE
 10
379.6364619999999
 20
112.0277099999999
 30
0.0
 40
0.3
 50
0.0
 51
138.2246519999999
  0
ARC
  8
ITEM_50
  5
7EF
 10
379.6364619999999
 20
115.958359
 30
0.0
 40
0.3
 50
221.775348
 51
0.0
  0
ARC
  8
ITEM_50
  5
7F0
 10
375.236462
 20
115.958359
 30
0.0
 40
0.3
 50
180.0
 51
318.2246519999999
  0
LINE
  8
ITEM_STPG
  5
7F2
 10
356.808601
 20
160.1163699999999
 30
0.0
 11
356.808601
 21
153.3762649999999
 31
0.0
  0
LINE
  8
ITEM_STPG
  5
7F4
 10
377.436462
 20
160.4729069999999
 30
0.0
 11
377.436462
 21
121.8788399999999
 31
0.0
  0
POLYLINE
  8
ITEM_50
  5
7FB
 66
     1
 10
0.0
 20
0.0
 30
0.0
 70
     1
  0
VERTEX
  8
ITEM_50
  5
7FC
 10
369.436462
 20
103.493035
 30
0.0
  0
VERTEX
  8
ITEM_50
  5
7FD
 10
385.436462
 20
103.493035
 30
0.0
 42
0.414214
  0
VERTEX
  8
ITEM_50
  5
7FE
 10
387.436462
 20
105.493035
 30
0.0
  0
VERTEX
  8
ITEM_50
  5
7FF
 10
387.436462
 20
117.493035
 30
0.0
 42
0.414214
  0
VERTEX
  8
ITEM_50
  5
800
 10
385.436462
 20
119.493035
 30
0.0
  0
VERTEX
  8
ITEM_50
  5
801
 10
369.436462
 20
119.493035
 30
0.0
 42
0.414214
  0
VERTEX
  8
ITEM_50
  5
802
 10
367.436462
 20
117.493035
 30
0.0
  0
VERTEX
  8
ITEM_50
  5
803
 10
367.436462
 20
105.493035
 30
0.0
 42
0.414214
  0
SEQEND
  8
ITEM_50
  5
804
  0
CIRCLE
  8
ITEM_50
  5
805
 10
377.436462
 20
113.993035
 30
0.0
 40
2.649999999999999
  0
LINE
  8
ITEM_50
  5
806
 10
374.936462
 20
117.6930349999999
 30
0.0
 11
374.936462
 21
115.958359
 31
0.0
  0
LINE
  8
ITEM_50
  5
807
 10
375.236462
 20
105.793035
 30
0.0
 11
379.6364619999999
 21
105.793035
 31
0.0
  0
LINE
  8
ITEM_50
  5
808
 10
379.936462
 20
106.093035
 30
0.0
 11
379.936462
 21
112.0277099999999
 31
0.0
  0
LINE
  8
ITEM_50
  5
809
 10
374.936462
 20
112.0277099999999
 30
0.0
 11
374.936462
 21
106.093035
 31
0.0
  0
LINE
  8
ITEM_50
  5
80A
 10
379.936462
 20
115.958359
 30
0.0
 11
379.936462
 21
117.6930349999999
 31
0.0
  0
LINE
  8
ITEM_50
  5
80B
 10
374.936462
 20
157.161865
 30
0.0
 11
374.936462
 21
158.161865
 31
0.0
  0
LINE
  8
ITEM_50
  5
80C
 10
375.436462
 20
158.661865
 30
0.0
 11
379.436462
 21
158.661865
 31
0.0
  0
LINE
  8
ITEM_50
  5
80D
 10
379.936462
 20
158.161865
 30
0.0
 11
379.936462
 21
157.161865
 31
0.0
  0
LINE
  8
ITEM_50
  5
80E
 10
367.436462
 20
125.161865
 30
0.0
 11
367.9864489999999
 21
156.670591
 31
0.0
  0
LINE
  8
ITEM_50
  5
80F
 10
387.436462
 20
125.161865
 30
0.0
 11
386.886475
 21
156.670591
 31
0.0
  0
LINE
  8
ITEM_50
  5
810
 10
367.436462
 20
125.161865
 30
0.0
 11
369.436462
 21
125.161865
 31
0.0
  0
LINE
  8
ITEM_50
  5
811
 10
368.486372
 20
157.161865
 30
0.0
 11
386.3865509999999
 21
157.161865
 31
0.0
  0
ARC
  8
ITEM_50
  5
813
 10
375.436462
 20
158.161865
 30
0.0
 40
0.5
 50
90.0
 51
180.0
  0
ARC
  8
ITEM_50
  5
814
 10
379.436462
 20
158.161865
 30
0.0
 40
0.5
 50
0.0
 51
90.0
  0
LINE
  8
ITEM_50
  5
83A
 10
369.436462
 20
125.161865
 30
0.0
 11
373.2864619999999
 21
125.161865
 31
0.0
  0
LINE
  8
ITEM_50
  5
83B
 10
373.2864619999999
 20
125.161865
 30
0.0
 11
374.7864619999999
 21
125.161865
 31
0.0
  0
LINE
  8
ITEM_50
  5
83D
 10
374.7864619999999
 20
125.161865
 30
0.0
 11
380.0864619999999
 21
125.161865
 31
0.0
  0
LINE
  8
ITEM_50
  5
83F
 10
380.0864619999999
 20
125.161865
 30
0.0
 11
381.5864619999999
 21
125.161865
 31
0.0
  0
LINE
  8
ITEM_50
  5
840
 10
381.5864619999999
 20
125.161865
 30
0.0
 11
385.436462
 21
125.161865
 31
0.0
  0
LINE
  8
ITEM_50
  5
841
 10
385.436462
 20
125.161865
 30
0.0
 11
387.436462
 21
125.161865
 31
0.0
  0
ARC
  8
ITEM_50
  5
846
 10
375.236462
 20
106.093035
 30
0.0
 40
0.3
 50
180.0
 51
270.0
  0
ARC
  8
ITEM_50
  5
847
 10
379.6364619999999
 20
106.093035
 30
0.0
 40
0.3
 50
270.0
 51
0.0
  0
ARC
  8
ITEM_50
  5
858
 10
349.308601
 20
158.161865
 30
0.0
 40
0.5
 50
90.0
 51
180.0
  0
LINE
  8
ITEM_50
  5
859
 10
360.308601
 20
125.161865
 30
0.0
 11
358.9586009999999
 21
125.161865
 31
0.0
  0
LINE
  8
ITEM_50
  5
85A
 10
348.308601
 20
125.161865
 30
0.0
 11
346.308601
 21
125.161865
 31
0.0
  0
LINE
  8
ITEM_50
  5
85B
 10
352.1586009999999
 20
125.161865
 30
0.0
 11
348.308601
 21
125.161865
 31
0.0
  0
LINE
  8
ITEM_50
  5
85C
 10
353.6586009999999
 20
125.161865
 30
0.0
 11
352.1586009999999
 21
125.161865
 31
0.0
  0
LINE
  8
ITEM_50
  5
85D
 10
358.9586009999999
 20
125.161865
 30
0.0
 11
353.6586009999999
 21
125.161865
 31
0.0
  0
LINE
  8
ITEM_50
  5
85E
 10
358.4800529999999
 20
158.661865
 30
0.0
 11
359.7325079999999
 21
158.661865
 31
0.0
  0
LINE
  8
ITEM_50
  5
85F
 10
347.358512
 20
157.161865
 30
0.0
 11
361.2586909999999
 21
157.161865
 31
0.0
  0
LINE
  8
ITEM_50
  5
860
 10
362.308601
 20
125.161865
 30
0.0
 11
360.308601
 21
125.161865
 31
0.0
  0
LINE
  8
ITEM_50
  5
861
 10
355.1490529999999
 20
157.161865
 30
0.0
 11
355.1490529999999
 21
158.661865
 31
0.0
  0
LINE
  8
ITEM_50
  5
862
 10
358.474101
 20
157.161865
 30
0.0
 11
358.474101
 21
158.661865
 31
0.0
  0
LINE
  8
ITEM_50
  5
863
 10
349.308601
 20
158.661865
 30
0.0
 11
355.1490529999999
 21
158.661865
 31
0.0
  0
LINE
  8
ITEM_50
  5
864
 10
348.808601
 20
157.161865
 30
0.0
 11
348.808601
 21
158.161865
 31
0.0
  0
LINE
  8
ITEM_50
  5
865
 10
346.308601
 20
125.161865
 30
0.0
 11
346.8585879999999
 21
156.670591
 31
0.0
  0
LINE
  8
ITEM_50
  5
866
 10
362.308601
 20
125.161865
 30
0.0
 11
361.758615
 21
156.670591
 31
0.0
  0
ARC
  8
ITEM_50
  5
868
 10
361.2586909999999
 20
156.661865
 30
0.0
 40
0.5
 50
1.0
 51
90.0
  0
ARC
  8
ITEM_50
  5
869
 10
347.358512
 20
156.661865
 30
0.0
 40
0.5
 50
90.0
 51
179.0
  0
ARC
  8
ITEM_50
  5
86A
 10
368.486372
 20
156.661865
 30
0.0
 40
0.5
 50
90.0
 51
179.0
  0
ARC
  8
ITEM_50
  5
86B
 10
386.3865509999999
 20
156.661865
 30
0.0
 40
0.5
 50
1.0
 51
90.0
  0
LINE
  8
ITEM_50
  5
86E
 10
379.6364619999999
 20
117.993035
 30
0.0
 11
375.236462
 21
117.993035
 31
0.0
  0
ARC
  8
ITEM_50
  5
86F
 10
375.236462
 20
117.6930349999999
 30
0.0
 40
0.3
 50
90.0
 51
180.0
  0
ARC
  8
ITEM_50
  5
870
 10
379.6364619999999
 20
117.6930349999999
 30
0.0
 40
0.3
 50
0.0
 51
90.0
  0
LINE
  8
ITEM_STPG
  5
871
 10
372.436462
 20
113.993035
 30
0.0
 11
381.8824309999999
 21
113.993035
 31
0.0
  0
LINE
  8
ITEM_STPG
  5
872
 10
377.436462
 20
100.6549389999999
 30
0.0
 11
377.436462
 21
121.788403
 31
0.0
  0
POINT
  8
ITEM_HILFE
  5
B07
 10
377.436462
 20
157.161865
 30
0.0
  0
POINT
  8
ITEM_HILFE
  5
B92
 10
367.436462
 20
157.161865
 30
0.0
  0
POINT
  8
ITEM_HILFE
  5
B95
 10
387.436462
 20
157.161865
 30
0.0
  0
ENDSEC
  0
EOF
